Back

Make Me Do Anything You Want Tab

by A Foot In Cold Water

>A Foot In Cold Water - (Make Me Do) Anything You Want
>Introduction Only
>=================
>
>The intro is comprised of an acoustic, electric and bass
>
>The acoustic part is good enough by itself, but full sound can be
>obtained by adding the electric and bass
>
>
>Acoustic (requires dropped D tuning)
>
>e-|----------------------------------------------------------------|
>B-|--3----3---------3----3---------3----3---------3----3----2----3-|
>G-|--2----2---------0----0---------2----2---------0----0----0----2-|
>D-|-------0--------------0--------------0--------------------------|
>A-|-----------------------------------------------0----0----0------|
>D-|--0---------0----2---------2----4---------4-------------------0-|
>
>Electric (clean Strat)
>
>e-|----------------------------------------------------------------|
>B-|--3----3---------3----3---------3----3---------3----3----2----3-|
>G-|--2----2---------0----0---------2----2---------0----0----0----2-|
>D-|--0----0---------0----0---------0----0------------------------0-|
>A-|-----------------------------------------------0----0----0------|
>E-|----------------------------------------------------------------|
>
>Bass
>
>G-|-----------------------------------------------2----2----2------|
>D-|--0---------0----2---------2----4---------4-------------------0-|
>A-|----------------------------------------------------------------|
>E-|----------------------------------------------------------------|
>
>Welcome any corrections / comments