Back

Creatures Of Craze Tab

by A House



From 1991s "I Am the Greatest"


Intro/Verse:

E----------------------------------------------------|
B----------------------------------------------------|
G----------------------------------------------------|
D------0-----0-----0-----0-----0------0-----0-----0--|
A---2------2-----2-----2-----2------2-----2-----2----|
E-0------0-----0-----0-----2------2-----2-----2------|


E----------------------------------------------------|
B----------------------------------------------------|
G----------------------------------------------------|
D------2-----2-----2-----0-----0------0-----0-----0--|
A---2------2-----2-----2-----2------2-----2-----2----|
E-0------0-----0-----0-----2------2-----2-----2------|

Chorus:

E----------------------------------------------------|
B----------------------------------------------------|
G----------------------------------------------------|
D------0-----0-----0-----0-------0-----0-----0-----0-|
A---2------2-----4-----4------2------2-----2-----2---|
E-3------3-----5-----5------0------0-----0-----0-----|

E----------------------------------------------------|
B----------------------------------------------------|
G----------------------------------------------------|
D------0-----0-----0-----0-------0-----0-----0-----0-|
A---2------2-----4-----4------2------2-----2-----2---|
E-3------3-----5-----5------0------0-----0-----0-----|

E----------------------------------------------------|
B----------------------------------------------------|
G----------------------------------------------------|
D------0-----0-----0-----0----4------2-----1-----0---|
A---2------2-----4-----4----5---5--3---3--2--2-0---0-|
E-3------3-----5-----5-------------------------------|