Back

Breathe Intro Tab

by Abney Park

-------------------------------------------------------------------------------
			     Breathe - Abney Park
-------------------------------------------------------------------------------


Tuning: standard

this is my first tab and i'm pretty sure it's quite accurate. just listen to the song to get the tempo


e------------------------|
B------0h1---1-0-3p1-0h1-|
G----2-------------------|
D------------------------|
A--0------0--------------|
E------------------------|


e------------------------------------------|
B-------0h1-3-5-5-3-5/65-31---1------------|
G-----2---------------------------0h2------|
D------------------------------------------|
A--0----------0---------------0-0-0-----0--|
E-------------------------------------3----|

e-------------------------0-----------0---|
B--3---5---3---0------1-------1-------1---|
G-------------------2---2---2---2-----2---|
D-------------------------------------0---|
A----------------0--------------------0---|
E----3---3---3----------------------------|


| /  slide up
|   slide down
| h  hammer-on
| p  pull-off
| ~  vibrato
| +  harmonic
| x  Mute note
===============================================================================