Back

Nuff Fire Tab

by Abstract Rude

Abstract Rude
"Nuff Fire"
Rejuvenation

Intro
G---------------------------------------|
D-6-5-3----------------6-5-3------------|
A---------6-4----------------6-4--------|
E-----------------6-------------------6-|

Verse
G---------------8---------------8-|
D----5-6-8-9-10-----5-6-8-9-10----|
A--8--------------8---------------|
E---------------------------------|

G-------6-8-9-10----6-8-10------6-|
D--8-10---------6----------66-6---|
A---------------------------------|
E---------------------------------|


-->