Back

United Suicide Legion Tab

by Acid Drinkers




"United Suicide Legion" - Acid Drinkers
---------------------------------------
The tabs are pretty much correct.

. = Palm Mute
/ = Slide
~ = Vibrato

Riff 1
E|--------------------------------------------------------||
B|--------------------------------------------------------||
G|--------------------------------------------------------||
D|---1-----1-----1---1------------------------------------||
A|-----0-1---0-1---0---0-1--/8-9-6------------------------||
E|-4------------------------------------------------------||


Riff 2
E|--------------------------------------------------------||
B|--------------------------------------------------------||
G|--------------------------------------------------------||
D|---1-----1-----1---1------------------------------------||
A|-----0-1---0-1---0---0-1--/8-9-6------------------------||
E|-4------------------------------------------------------||
   .   . .   . .   .

Chorus
E|--------------------------------------------------------||
B|--------------------------------------------------------||
G|--------------------------------------------------------||
D|-6-6-4-6---6-6-4-6---6-6-4-6---4--2~--------------------||
A|-6-6-4-6---6-6-4-6---6-6-4-6---4--2~--------------------||
E|-4-4-2-4---4-4-2-4---4-4-2-4---2--0---------------------||

During the verse just play various chords.