Back

The Diamond Ring Intro Tab

by Adair

--------------------------------|
---------------[12]-------------|
-------[12]--------[12]---[12]--|
---[12]----[12]--------[12]-----|
--------------------------------|
-0------------------------------|

--------------------------------|
-----------[7]------------------|
------[7]------[7]----[7]-------|
---[7]---[7]-------[7]----------|
--------------------------------|
-9------------------------------|

--------------------------------|
-----------[7]------------------|
------[7]------[7]----[7]-------|
---[7]---[7]-------[7]----------|
-0------------------------------|
--------------------------------|

--------------------------------|
---------[7]--------------------|
--[7]-[5]---[7]-----------------|
---------------[7]--------------|
------------------[7]-----------|
-5-------------------[7]--------|


[] = Harmonics


-->