Back

Luke 457 Intro Tab

by Aeon

100% Correct
Listen to the song for note durations

Tremelo Pick all parts (moderately fast. Again just listen to the song.)

|--------------------------------|
|--------------------------------|
|--------------------------------|
|--------------------------------|
|--------8----5-4-5-4----4--5-4--|
|--0--5---------------5---------5|

|--------------------------------|
|--------------------------------|
|--------------------------------|
|-----------------------------7--|
|--------8----5-4-5-4----4--5---5|
|--0--5---------------5----------|
I find this very catchy.