Back

Serpents Embrace Intro Tab

by Agathodaimon

Intro
|-----------------------------------------------------------------------|
|-----------------------------------------------------------------------|
|-----------------------------------------------------------------------|
|------------------------5-3-2------------------------------------------|
|------------3-0--x3----------------------------------------------------|
|--3-0--x6--------------------------------------------------------------|

0:05-0:24
|-----------------------------------------------------------------------|
|-----------------------------------------------------------------------|
|-----------------------------------------------------------------------|
|--10~-10-12-10-9-9-7-9---10~-10-12-10-9-9-7-9--------------------------|
|-----------------------------------------------------------------------|
|-----------------------------------------------------------------------|

|-----------------------------------------------------------------------|
|-----------------------------------------------------------------------|
|-----------------------------------------------------------------------|
|---10~-10-12-10--10~-10-12-10-9-7-9------------------------------------|
|-----------------------------------------------------------------------|
|-----------------------------------------------------------------------|


-->