Back

Everything I Need Intro Tab

by Ainsley Lister

----------------------------------------------------------------------------
			EVERYTHING I NEED - Ainsley Lister
----------------------------------------------------------------------------


Tuning: standard (E A D G B e)
                                         x2
e|-----------------------------------------|-------------------------------|
B|-----------------------------------------|-------------------------------|
G|-2-2-2-2-2-2-2-2-2-2-2-2---2---2-2-2-2---|-------------2-----------------|
D|-2-2-2-2-2-2-2-2-2-2-2-2---2---2-2-2-2---|-----2-------2-----------------|
A|-0-0-0-0-0-3-0-0-0-0-0-0---x---x-x-x-x---|-0h3---0-----0-----------------|
E|-------------------------2---2---3-3-3---|---------0-3-------------------|

You need to dampen some of the notes after playing them, do not let them ring
otherwise it will sound wrong. It is best played using distortion/if possible
use humbuckers as this gives the riff more drive.

The second bar is guitar 2 playing a little fill using A pentatonic minor.  

| /  slide up
| \  slide down
| h  hammer-on
| p  pull-off
| ~  vibrato
| +  harmonic
| x  Mute note
===============================================================================