Back

Pay The Rent Tab

by Ali Campbell

Title-Pay The Rent
Artist-Ali Campbell
Album-Big Love

 bass comes in with vocals
 riff 1
G|------------------------------------------------------|
D|------------------------------------------------------|
A|-3----3--------33-3---333----3----3--------33-3---333-|
E|---11---11---3------3----------11---11---3------3-----|

 riff 2a
G|-----------------------------4---4-|
D|---------1-111-1--3-333-3--5---5---|
A|-3-333-3---------------------------|
E|-----------------------------------|
 riff 2b
G|-------------------------------4-----4---4----4--4---4-----4-4---|
D|----------1-111-1--3-333333--5---5----5----5---5---5---5555----5-|
A|-3-333333--------------------------------------------------------|
E|-----------------------------------------------------------------|


-->