Back

Better Off Alone Tab

by Alice Deejay

was happnin , the tabs for this song on here are nearly correct but i've made some 
to make it perfect , hope u like it ;)
standard tuning.
this track is usually played on a keyboard but seeing as the album is called 'who needs 
anyway' i thought id be facetious.

e------------------------|
b-12--11-12----12--11-12-| (intro) (x 4)
g------------------------|
d------------------------|
a------------------------|
e------------------------|

e-------------14-14-11------------12-12-11------------|  (1st riff)(x 2)
g-12-12----------------12-12---------------12-12------|
b-------13-------------------13--------------------13-|
d-----------------------------------------------------|
a-----------------------------------------------------|
e-----------------------------------------------------|

e-------------------14-14-11-------------------12-12-11--------|
b-12-12----12-11-11----------12-12----12-11-11---------12-12---|
g------13--------------------------13-----------------------13-| (main riff)
d--------------------------------------------------------------|
a--------------------------------------------------------------|
e--------------------------------------------------------------|

you can work out the timing by listning to the track
best trance song ever! hope you enjoy!