Back

Better Off Alone Tab

by Alice Deejay

This is the correct version of Better Off Alone.
Even though they are the right notes, I think it sounds on the guitar if the
notes are played half a step down, so I included the tabs for the half a step
down version as well; to save you the trouble rewriting it or tuning your guitar.


Normal Version
e----------------15-15-12---------------13-13-12------------|
B--13-13-10---------------13-13-10---------------13-13-10---|
G-----------------------------------------------------------|
D-----------------------------------------------------------|
A-----------------------------------------------------------|
E-----------------------------------------------------------|

e--15-15-12-----------------------------------------|
B-----------13-13-10--------------------------------|
G---------------------------------------------------|
D---------------------------------------------------|
A---------------------------------------------------|
E---------------------------------------------------|

This is played through the rest of the song
e--13-13-12-----------------------------------------|
B-----------13-13-10-13-13-12-----------------------|
G-----------------------------12--------------------|
D---------------------------------------------------|
A---------------------------------------------------|
E---------------------------------------------------|

e--15-15-12-----------------------------------------|
B-----------13-13-10-13-13-12-----------------------|
G-----------------------------12--------------------|
D---------------------------------------------------|
A---------------------------------------------------|
E---------------------------------------------------|


Half a Step Down Version
e----------------14-14-11---------------12-12-11------------|
B--12-12--9---------------12-12--9---------------12-12--9---|
G-----------------------------------------------------------|
D-----------------------------------------------------------|
A-----------------------------------------------------------|
E-----------------------------------------------------------|

e--14-14-11-----------------------------------------|
B-----------12-12--9--------------------------------|
G---------------------------------------------------|
D---------------------------------------------------|
A---------------------------------------------------|
E---------------------------------------------------|

This is played through the rest of the song
e--12-12-11-----------------------------------------|
B-----------12-12--9-12-12-11-----------------------|
G-----------------------------11--------------------|
D---------------------------------------------------|
A---------------------------------------------------|
E---------------------------------------------------|

e--14-14-11-----------------------------------------|
B-----------12-12--9-12-12-11-----------------------|
G-----------------------------11--------------------|
D---------------------------------------------------|
A---------------------------------------------------|
E---------------------------------------------------|