Back

Heartbeat Tab

by Alien Primata

This is the Hit of the austrian alternative-reggea-rock band Alien Primata.
visit their HP.


        h........hammer on
        ~........let ring


Luke plays the Intro.


I'm running a fast as I can, 
yes I am a running man.
I'm running a fast as I can, 
yes I am a running man.

Now the bass.
Vers 1: I', searchin' for my. . .

G|------------------|-----------------|------------------|--------------------------|
D|------------------|-3h5-5-5-5-5-3---|------------------|-3h5-5-5-5-5-5-3----------|
A|-5-5-5-5-5-3------|---------------5-|-5-5-5-5-5-3------|-----------------5-3------|
E|-------------5~---|-----------------|-------------5~---|---------------------5-3-1|



Chorus: And while I'm running. . .

G|-----------|-------------|-----------|----------|
D|-----------|-5-5-5-3-----|-----------|----------|
A|-3-3-3-3-3-|---------5-3-|-----------|----------|
E|-----------|-------------|-5-5-5-5-5-|-0----1---|

Heartbeat: And my Heartbeat goes. . .

G|-------------------------|-------------------------|----------------------------------|
D|-------------------------|-------------------------|----------------------------------|
A|-5-5-5-------5-5-5-------|-5-5-5-------5-5-5-------|-3-3-3-------------1-1-1-3-3-3-3~-|
E|-------5-5-5-------3-3-3-|-------5-5-5-------3-3-3-|-------5-5-5-3-3-3----------------|


Bridge:

G|-----------------------|-----------------------|-----------------------|-----------------------|
D|-----------3-3-3-3-2---|-----------3-3-3-3-2---|-----------3-3-3-3-2---|-----------2h3-2h3-2---|
A|-3-3-3-3-3-----------3-|-3-3-3-3-3-----------3-|-3-3-3-3-3-----------3-|-3-3-3-3-3-----------3-|
E|-----------------------|-----------------------|-----------------------|-----------------------|


Outro:

G|----------|------------|
D|----------|-3h5~-5-3---|
A|-5~-5-3---|----------5-|   x2
E|--------5-|------------|



Thanxx


-->