Back

Caught In A Dream Tab

by All Insane Kids

Artist: Aik
Song: Caught in a Dream

Bass


This is my first tab.
I'm not pretty sure this song uses a bass, but a bass playing this song will find this
useful...
It's not a diffucult song, but since I haven't seen any Aik tab on internet, I decided
tab it by myself.
My next tab will be the guitar's!


Figure 1; Intro: (after guitar begining)
00:09
G|-----------------------------------------------------------------|
D|-----------------------------------------------------------------|
A|-----0-2-2-2-2-2-2-----0-2-2-2-2-2-2-----0-2-2-2-2-2-2-----0-3-2-|
E|-0-2---------------0-2---------------0-2---------------0-2-------|x2


Figure 2; Verse 1: 00:28
G|-----------|
D|-----------|
A|-----------|
E|2-2-x-x-x-x|x8, untill:


Figure 3; 00:37
G|-----------------------------------------------|
D|-----------------------------------------------|
A|------------------------2-2-x-x-x-x------------|
E|5-5-x-x-x-x-5-5-x-x-x-x-------------3-3-x-x-x-x|


00:47 Repeat figure 2
"you're getting blind, you cannot see, etc."

00:56 Repeat figure 3
"filled with disbelieve. Are my senses... etc."

01:01 Then again:
G|-----------|
D|-----------|
A|-----------|
E|2-2-x-x-x-x|x2

Figure 4; Pre Chorus 01:04

G|-----------------------------|
D|-----------------------------|
A|-----------------------------|
E|5-5-5-5-5-5-5-5-5-5-5-5-5-5-5|
"but now is the timeeeeeeeeeeee..... It's time to say!"


Figure 5; Chorus 01:08 (similar to the intro, but not the same....)

G|--------------------------------------------------------------------|
D|--------------------------------------------------------------------|
A|----0-2-2-2-2-2-2-----0-2-2-2-2-2-2-----0-2-2-2-2-2-2--------2-2-2-2|
E|0-2---------------0-2---------------0-2--------------0-0-0-0--------|x2
"Boo! We're everywhere you se... etc."

(Only guitar, 01:28 - 01:32)


Verse 2: 01:32 Repeat figure 2


Figure 6: 01:42
G|-----------------------------------------------------------------------|
D|-----------------------------------------------------------------------|
A|-----------------------2-2-x-x-x-x-------------------------------------|
E|5-5-x-x-x-x-5-5-x-x-x-x------------3-3-x-x-x-x-2-2--2-2--3--2-2--2-2--3|
"Like you Were On a Different plane"


01:51 Repeat figure 4


Figure 7; CHorus 2: 01:56 (similar to chorus 1, but at the end it leads to the guitar solo)
G|--------------------------------------------------------------------|
D|--------------------------------------------------------------------|
A|----0-2-2-2-2-2-2-----0-2-2-2-2-2-2-----0-2-2-2-2-2-2--------2-2-2-2|
E|0-2---------------0-2---------------0-2---------------0-0-0-0-------|

G|-----------------------------------------------------------------------------------|
D|-----------------------------------------------------------------------------------|
A|----0-2-2-2-2-2-2-----0-2-2-2-2-2-2-----0-2-2-2-2-2-2--------2-2-2-2--------2-2-2-2|
E|0-2---------------0-2---------------0-2---------------0-0-0-0-------0-0-0-0--------|


Figure 8; During Guitar Solo: 2:18
G|-------------------------------|
D|-------------------------------|
A|------------0-----------------2|
E|2-2-2-2-2-------0-0-0-0-0-0-0--|x4, then:
02:37
G|-------------------------------------------------------------------------------|
D|-------------------------------------------------------------------------------|
A|-------------------------------------------------------------------------------|
E|5------2-2-x-x-x-3-p2-2-x-x-x-3-p2-2-x-x-x-3-p2-2-x-x-x-2-2/5-5-5-5-5-5-5-5-2--|

----------------------------------|
----------------------------------|
----------------------------------|
2-2-2-3-3-3-3-4-4-4-4-5-5-5-5-----|
"Is that all you want from me? etc."


Figure 9; When there's no guitar: 02:55
G|----------------------------------------|
D|----------------------------------------|
A|-------------------------------------2-2|
E|s0/2-5/7--s0/2-5/7--s0/2-5/7-14\0-0-----|

03:05 Repeat figure 7, then outro:

G|-----------------|
D|-----------------|
A|--------2-2-2-2--|
E|0-0-0-0---------2|


That's all!!!
Easy, right?
xD

It would be better to follow the notes by the rhythm, not exactly by the tab. That's why
not 100% correct.
 Played like the tab still sounds good.


x :mute note
\ :slide down
/ :slide up
h :hammer on
p :pull off
s :slap (can be used most of the song, it still sounds good. It's not meant to be used, though.)
b :bend


-->