Back

Nobodys Driving Tab

by Amebix

Amebix - Nobody's Driving
Album - Monolith


This should be pretty accurate.If some parts sound
incorrect feel free to change them.

riff 1
|---------------------------------|
|---------------------------------|
|--9-----9-----9-9-9-----9-9-9-7--|
|--9-----9-----9-9-9-----9-9-9-7--|
|--7-----7-----7-7-7-----7-7-7-5--|
|----000---000-------000----------|
     ...   ...       ...

riff 2
|----------------------------------------------------------------------|
|----------------------------------------------------------------------|
|----------------------------------------------------------------------|
|--5-----5-----5--5--5-----5---7--7---5-----5-----5--5--5-----5---4--4-|
|--5-----5-----5--5--5-----5---7--7---5-----5-----5--5--5-----5---4--4-|
|--3-333-3-333-3--3--3-333-3---5--5---3-333-3-333-3--3--3-333-3---2--2-|
     ...   ...         ...              ...   ...         ...   

riff 3
|--------------------------------|
|--------------------------------|
|--------------------------------|
|--4--4--4--7--7--4--4--4--9--9--|
|--4--4--4--7--7--4--4--4--9--9--|
|--2--2--2--5--5--2--2--2--7--7--|
   .  .           .  .

riff 4                           
|------------------------------------------------------|
|------------------------------------------------------|
|-2--2--2--2-2-4-5--5-5-5--5-5-7-7-7-7-7-7-7-7-7-7-7-7-|
|-2--2--2--2-2-4-5--5-5-5--5-5-7-7-7-7-7-7-7-7-7-7-7-7-|
|-0--0--0--0-0-2-3--3-3-3--3-3-5-5-5-5-5-5-5-5-5-5-5-5-|
|------------------------------------------------------|

There are a few parts throughout the song
were Stig just makes noise with his guitar
for those parts muffle your strings and just 
slide across all of them with your pick or something..