Back

Today I Saw Your Face Intro Tab

by An Angle

Today I Saw Your Face
By: An Angle
From the Album: ...And Take it with a Grain of Salt

This is just the intro to this amazing song. 
I have yet to tab the entire thing but if you
can get the intro you should be able to sound
out the verse and chorus. 
Feel free to rate and make changes as needed. Enjoy!

Intro (Clean Elec. Guitar)

e|-------------------------0h3---------------|
b|----3-----------1--------------------------|
g|----------0--------0----------0------------|
D|-------------2-------2----------2----------|
A|-3-----------------------------------------|
E|-------------------------------------------|

e|-------------------------0h3---------------|
b|----3-----------1--------------------------|
g|----------0--------0----------0------------|
D|-------------2-------2----------2----------|
A|-3-----------------------------------------|
E|-------------------------------------------|

e|---------3--------------3----------------1-|
b|---------3--------------3------------1---1-|
g|---------0--------------0----------------0-|
D|-----0--------0-----0-------0--------------|
A|----------------0-------------0----2-------|
E|-3----------------3------------------------|



e|-------------------------------------------|
b|-------------------------------------------|
g|-------------------------------------------|
D|------------3-2-0--------------------------|
A|--------------------2-3--------------------|
E|-------------------------------------------|


e|-------------------------0h3---------------|
b|--3-----------1----------------------------|
g|----------0--------0----------0------------|
D|-------------2-------2----------2----------|
A|-------------------------------------------|
E|-------------------------------------------|

e|-------------------------0h3---------------|
b|----3-----------1--------------------------|
g|----------0--------0----------0------------|
D|-------------2-------2----------2----------|
A|-3-----------------------------------------|
E|-------------------------------------------|

e|---------3--------------3----------------1-|
b|---------3--------------3------------1---1-|
g|---------0--------------0----------------0-|
D|-----0--------0-----0-------0--------------|
A|----------------0-------------0----2-------|
E|-3----------------3------------------------|


e|-------------------------------------------|
b|-------------------------------------------|
g|-------------------------------------------|
D|------------3-2-0--------------------------|
A|--------------------2-3--------------------|
E|-------------------------------------------|

e|-0-----------0-----------------------------|
b|---0----0h1----0---------------------------|
g|-------------------0-----------------------|
D|-------------------------------------------|
A|-------------------------------------------|
E|-------------------------------------------|