Back

Wooden Fish Gold Fish Tab

by Andy Lau

Artist : Andy Lau
Title : Wooden fish and Golden fish

Intro:


|------------------------|-------------------|--------------------------|
|-5-----3-----5-----3----|-5-----3-----1-----|-5-----3-----5------------|
|------------------------|-------------------|--------------------------|
|------------------------|-------------------|--------------------------|
|------------------------|-------------------|--------------------------|
|------------------------|-------------------|--------------------------|
2                        3                   4


--------|-3-----|-------------------------|------------------|----------|
6-------|-------|-5-----3-----5-----3-----|-5-----3-----1----|----------|
--------|-------|-------------------------|------------------|----------|
--------|-------|-------------------------|------------------|-5--------|
--------|-------|-------------------------|------------------|----------|
--------|-------|-------------------------|------------------|----------|
        5       6                         7                  8


---------------0----3----5----10----------------------------------------|
-----1----3-------------------------------------------------------------|
2-----------------------------------------------------------------------|
------------------------------------------------------------------------|
------------------------------------------------------------------------|
------------------------------------------------------------------------|