Back

El Rio Intro Tab

by Apron

mvturegg@hotmail.de


e|------------------------------3-2--|
B|----------1p0-------1-----3--------|
G|--------0-----0-------0------------|
D|------0---------0-3-----2---0-0----|
A|----0------------------------------|
D|--0--------------------------------|

e|-----------------------------------|
B|----------1p0-----1-----0-----1----|
G|--------0-----0-----0-----0--------|
D|------0---------3-----2-----3------|
A|----0------------------------------|
D|--0--------------------------------|


-->