Back

Think About Me Intro Tab

by Artful Dodger

-------------------------------------------------------------------------------
			     THINK ABOUT ME - Artful Dodger
-------------------------------------------------------------------------------

This is my first tab ever so try not to be too critical!  After months and months of
searching for this tab with no joy I gave up and decided to try it myself.  Turned
out suspiciously easy (prob cos it's wrong!) but it's not too shabby.

Enjoy!

Tuning: Standard

e|----------3-|------------|------------|------------|--|
B|-------4----|----------4-|----------4-|-------3--0-|--|
G|--5---------|-------5----|-------5----|------------|--|
D|------------|------------|--6---------|------------|--|
A|------------|------------|------------|------------|--|
E|------------|------------|------------|------------|--|