Back

Sweet Rio Tab

by Arthur Lipner

              |8|    |9|  |10|  |11|  |12|  |13|   |14|  |15|  |16|
g|--rest for 7|------|----|-----|-----|---0-|------|---0-|-----|-----|
d|------------|--0-1-|-3--|---1-|-3---|-----|-3--1-|3----|-0---|-----|
a|------------|-3----|----|-----|-----|-----|------|-----|---4-|3-2--|
e|------------|------|----|-----|-----|-----|------|-----|-----|-----|

 |A|     |18|  |19|   |20|   |21|   |22|   |23|   |24|   |25|  |26|
g|-------|-----|------|------|----3-|----0-|------|------|--3--|--3--|
d|---3---|-3---|--3---|--3---|--3---|------|3-----|--3---|1----|1----|
a|-1-----|-----|1-----|------|1-----|------|--3---|1---1-|----1|----1|
e|-----1-|1--1-|----1-|1---1-|------|1-1---|----1-|------|-----|-----|

 |27|   |28|  |29|  |30|  |31|  |32|
g|--3---|--3--|--3--|--3--|-----|-------|
d|1---1-|1----|1---1|1---1|-1---|-------|
a|------|----1|-----|-----|---4-|-3-2-2-|
e|------|-----|-----|-----|-----|-------|

 |B|    |34|   |35|   |36|   |37|   |38|   |39|   |40|   |41|
g|------|------|------|------|----4-|2-2-0-|------|------|--3---|
d|--3---|--3---|--3---|------|--3---|------|3-----|--3---|1---1-|
a|1-----|------|1-----|--3---|1-----|------|--3---|1---1-|------|
e|----1-|1---1-|----1-|1---1-|------|------|----1-|------|------|

 |42|   |43|   |44|   |45|   |46|   |47|    |48|   |49|  |50|
g|--3---|--3-2-|0-----|--0---|------|-------|------|--3--|--3--|
d|1---1-|0-----|------|----4-|3-----|---3---|------|1----|1----|
a|------|------|--5-4-|3-----|--3---|-1-----|--3-1-|----1|----1|
e|------|------|------|------|----1-|-----1-|1-----|-----|-----|


-->