Back

Bounce Tab

by Ash Relative

relitive ash - bounce
mike (maggotcorpse97@hotmail or aol=maggotcorpse97)intro
e--------------------------------------------------------------------
b--------------------------------------------------------------------
g--------------------------------------------------------------------
d--------------------------------------------------------------------
a------7---------7---------------------------------------------------
e---6-------6----------8-7-6-----------------------------------------
repeat but you have to listen to the song to find how mant times


chorus
e--------------------------------------------------------------------
b--------------------------------------------------------------------
g--------------------------------------------------------------------
d---6-7-6-7---6-7-6-7--0---------------------------------------------
a---6-7-6-7---6-7-6-7--0---------------------------------------------
e---6-7-6-7---6-7-6-7--0---------------------------------------------
repeat but you have to listen to the song to find how mant times


-->