Back

Im Sorry Tab

by Ashley Parker Angel

I was listening to this song and i thought it was quite nice,
 i was suprised i was able to figure out the chords.
 I'm not sure if it's accurate, 
i'm quite confident it is, except for some hammering for the plucking part. 
This is my first tab so yeah.

Cheers!

-Joel.

****

Title: I’m sorry 
Artist: Ashley Parker Angel
Tuning: Standard

Main Chords: E, A, C#m, A

Intro, plucking.
|-----------0----------|
|------0---------0-----|
|----------------------|
|-2------2--------2----|
|----------------------|
|----------------------|

|----------------------|
|----------------------|
|----1----1h2----------|
|---------------2------|
|-0----0------------0--|
|----------------------|


|----------------------|
|----------5-----------|
|----6---------6-------|
|-----------------6----|
|-4-----4--------------|
|----------------------|


|----------------------|
|----------------------|
|------4----------2----|
|---4-----4----2-----2-|
|-2 ---------0----------|
|----------------------|

Chorus

E                          A
But it's been coming for awhile,

                      C#m
and I've been hiding in denial

                        A                 E
I never quite had what it takes to be a man,

                               A
I should have turned myself around,

                                  C#m
I should have tried to stand my ground

                            A
But now its over, and theres nothing left for me to do

      E
but go