Back

Red Wing Tab

by Asleep At The Wheel


Red Wing

This has been played for a long time by a lot of different artists and has received
many rewrites.  This is just a basic tab line.  Please feel free to add to it, as

E|--------------------------|
B|--------------------1-----|
G|----------0-------2---2-0-|
D|--------2-----3-3---------|
A|3-3-3-3-----3-------------|
E|--------------------------|

E|-----------------------------------------|
B|-----------------------------------------|
G|-----------------------------------------|
D|2-3-3-2-0-3-2-2-0---2-0-------0-2-0------|
A|------------------3-----0-2-3-------3-2--|
E|----------------------------------------3|


E|--------------------------|
B|--------------------1-----|
G|----------0-------2---2-0-|
D|--------2-----3-3---------|
A|3-3-3-3-----3-------------|
E|--------------------------|


E|-------------------------------|
B|-------------------------------|
G|-------------------------------|
D|2-3-3-2-0-3-2-2-0---2-0--------|
A|------------------3-----0-2---3|
E|----------------------------3--|


E|-----------------------------------------|
B|1-0---------1-0--------------------------|
G|----2-2-2-2-----2-0---0-2-0-0---0-2-0-0--|
D|--------------------2---------0---------2|
A|-----------------------------------------|
E|-----------------------------------------|



E|---------------------------------------|
B|1-0---------1-0------------------------|
G|----2-2-2-2-----2-0---0-2-0-0----------|
D|--------------------2---------0-3-2-0--|
A|--------------------------------------3|
E|---------------------------------------|


-->