Back

Young Generation Dub Tab

by Augustus Pablo

Track 3 from "King Tubby Meets Rockers Uptown." Some minor rhythmic variations 
the recording.

Riff 1:

   1 & 2   3  4 & 1 & 2 3 4
G|-4-----------------------|
D|---4------------4-4-4----|
A|-----5---2--2-5----------|
E|-------------------------|

Riff 2:

   & 1 2 3 4 1 2 3 4
G|---------------------|
D|-4-2-2---4-----------|
A|-----------2-2-------|
E|---------------------|

Riff 3:

   1   2 & 3   4  1   2   3 4  1 & 2   3  4 & 1 & 2 3 4
G|-----------------------------4-----------------------|
D|-------------------------------4------------4-4-4----|
A|-4---4-4-2---2-------------------5---2--2-5----------|
E|----------------5---5---4----------------------------|

Riff 4:

   1   2 & 3   4  1 & 2   3 4  1 & 2   3  4 & 1 & 2 3 4
G|-----------------------------4-----------------------|
D|-------------------------------4------------4-4-4----|
A|-2---2-2-------------------------5---2--2-5----------|
E|---------5---5--3-3-3---2----------------------------|


Structure:

Riff 1   x4
Riff 1,2 x2
Riff 3,4
Riff 1,2 x2
Riff 3,4
Riff 1   x4
Riff 1,2 x2
Riff 3,4
Riff 1,2 x2
Riff 3,4 x3



-->