Back

Contrareloj Tab

by Aurum

Aurum.... Alan


Guitarra 1
Intro
E|---------------------------------------------|
B|---------------------------------------------|
G|-6-------6-----6666---------6666-------------|
D|-6-3-4---6-6---4444-3-4444--6666-6666--------|
A|-4-3-4---4-6---4444-3-4444--4444-6666--------|
E|---1-2-----4--------1-2222-------4444—4/14/4-|

Verso
(Con Palm Muted)
E|---------------------------------------|
B|---------------------------------------|
G|----------66666666---------------------|
D|-44444444-66666666-44444444-66666666---| X2
A|-44444444-44444444-44444444-66666666---|
E|-22222222----------22222222-44444444---|

Precoro
E|---------------------------------------|
B|---------------------------------------|
G|---------------------------------------|
D|-88-33-44444444-88-33-4444-6666--------|
A|-88-33-44444444-88-33-4444-6666--------|
E|-66-11-22222222-66-11-2222-4444--------|

Coro
E|------------------------------------------------|
B|------------------------------------------------|
G|----------6666666-------------------------------|
D|-44444444-6666666-33333333-3-44444444-8888-6666-| X2
A|-44444444-4444444-33333333-3-44444444-8888-6666-|
E|-22222222---------11111111-1-22222222-6666-4444-|

Intro
E|---------------|
B|---------------|
G|-6-------6-----|
D|-6-3-4---6-6---|
A|-4-3-4---4-6---|
E|---1-2-----4---|

Verso x1
Precoro x1
Coro x2

Break
E|------------------------------------------------|
B|------------------------------------------------|
G|---6---------------66666666---------------------|
D|-4-6-4-6--44444444-66666666-44444444-8888-6666--|
A|-4-4-4-6--44444444-44444444-44444444-8888-6666--|
E|-2---2-4--22222222----------22222222-6666-4444--|

Coro x2
Outro
E|---------------------------------------|
B|---------------------------------------|
G|-666----------6666---------------------| X2
D|-666-333-4444-6666-6666----------------|
A|-444-333-2222-4444-6666----------------|
E|-----111-2222------4444----------------|

E|----
B|----
G|-6--
D|-6—- Acaba en C#
A|-4--
E|----

Ahora los arreglos
Guitarra 2
Intro
E|---8---6-----4---4-------------------|
B|-------------------------------------|
G|-10-8-8-8-8-6-6-6-6------------------| x4
D|-------------------------------------|
A|-------------------------------------|
E|-------------------------------------|

Verso
(Con Palm Muted)
E|---------------------------------------|
B|---------------------------------------|
G|----------66666666---------------------|
D|-44444444-66666666-44444444-66666666---| X2
A|-44444444-44444444-44444444-66666666---|
E|-22222222----------22222222-44444444---|

Precoro
E|---------------------------------------|
B|--6b-6b--------6b-6b-------------------|
G|-------666666-------666888-------------|
D|-8—8----------8—8----------------------|
A|---------------------------------------|
E|---------------------------------------|

Coro
E|---------------------------------------|
B|---------------------------------------|
G|-66-55-66-55-66-55-6-7-66-88-1010-88---|
D|-----------------------xx-xx--x-x-xx---|
A|-----------------------44-66--8-8-66---|
E|---------------------------------------|

E|---------------------------------------|
B|---------------------------------------|
G|-66-55-66-55-66-55-6-7-8888--10101010--|
D|-----------------------xxxx---x-x-x-x--|
A|-----------------------6666---8-8-8-8--|
E|---------------------------------------|

E|----------------------------------------------|
B|----------------------------------------------|
G|-66-55-66-55-66-55-6-7-666-888--101010-111111-|
D|-----------------------xxx-xxx---x-x-x--x-x-x-|
A|-----------------------444-666---8-8-8--9-9-9-|
E|----------------------------------------------|

E|---------------------------------------|
B|---------------------------------------|
G|-66-55-66-55-66-55-6-7-8888--10101010--|
D|-----------------------xxxx---x-x-x-x--|
A|-----------------------6666---8-8-8-8--|
E|---------------------------------------|

Intro X2
Verso X1
Precoro X1
Coro x2

Break
E|---------------------------------------|
B|---------------------------------------|
G|----------------1-----(X3) ---6-5------| h=hammer
D|-1h333-1h3-3-1-3—3-1-3------------6----|
A|---------------------------------------|
E|---------------------------------------|

E|---------------------------------------|
B|---------------------------------------|
G|----------------1-----(X3) ---6-(5) ---| Nota el (5) es un
D|-1h333-1h3-3-1-3—3-1-3--------------6—-|  armónico natural
A|---------------------------------------|
E|---------------------------------------|

Coro X2
Intro X4

E|----
B|----
G|-6--
D|-6—- Acaba en C#
A|-4--
E|----


-->