Back

Eyes Of Light Tab

by Awesome Color

-------------------------------------------------------------------------------
			     Eyes Of Light - Awesome Color
-------------------------------------------------------------------------------


Main Part:

G|---------------------------------------------------------------------------|
D|-1-------2-----------------------------------------------------------------|
A|--33-313--33-313-----------------------------------------------------------|
E|---------------------------------------------------------------------------|

after the "...into my dream"

G|---------------------------------------------------------------------------|
D|---------------------------------------------------------------------------|
A|-4444444433333013----------------------------------------------------------|
E|---------------------------------------------------------------------------|

back into:

G|---------------------------------------------------------------------------|
D|-1-------2-----------------------------------------------------------------|
A|--33-313--33-313-----------------------------------------------------------|
E|---------------------------------------------------------------------------|

after the "...spill in the street"

G|---------------------------------------------------------------------------|
D|---------------------------------------------------------------------------|
A|-4444444433333013----------------------------------------------------------|
E|---------------------------------------------------------------------------|

back into:

G|---------------------------------------------------------------------------|
D|-1-------2-----------------------------------------------------------------|
A|--33-313--33-313-----------------------------------------------------------|
E|---------------------------------------------------------------------------|


after the "...i'll stop the star"

G|---------------------------------------------------------------------------|
D|---------------------------------------------------------------------------|
A|-4444444433333013----------------------------------------------------------|
E|---------------------------------------------------------------------------|

back into:

G|---------------------------------------------------------------------------|
D|-1-------2-----------------------------------------------------------------|
A|--33-313--33-313-----------------------------------------------------------|
E|---------------------------------------------------------------------------|


after the "...into my dream"

G|---------------------------------------------------------------------------|
D|---------------------------------------------------------------------------|
A|-4444444433333013----------------------------------------------------------|
E|---------------------------------------------------------------------------|

back into:

G|---------------------------------------------------------------------------|
D|-1-------2-----------------------------------------------------------------|
A|--33-313--33-313-----------------------------------------------------------|
E|---------------------------------------------------------------------------|

when the epic guitar solo/outro thing starts:

G|---------------------------------------------------------------------------|
D|-1-------------------------------------------------------------------------|
A|--33-313-000-013-----------------------------------------------------------|
E|---------------------------------------------------------------------------|

that was my first tab ever.  everyone needs to listen to awesome color and get a copy of 
aborigines.


===============================================================================