Back

Got Rice Tab

by Azn Pride

Got Rice (part I) performed by Azn Pride
Beat: Changes-Tupac


Standard Tuning
___________________________
Piano arranged for guitar: |
---------------------------

Intro [0:00->0:12]
--8----8-----7-----------------------------
--10---10----8-----10p8h10--12--8---7h9p7~-
--9----9-----------------------------------
-------------------------------------------
-------------------------------------------
-------------------------------------------

Background (this one riff is looped in the bg)
-------------------------------------------
-12--10---8---10-------12---10---8---10----
------------------9~--------------------9~-
-------------------------------------------
-------------------------------------------
-------------------------------------------


-->