Back

Everyone Is Someone In La Tab

by Felix Da Housecat

-------------------------------------------------------------------------------
		  Everyone Is Someone In LA - Felix Da Housecat
-------------------------------------------------------------------------------

Tuning: E-Flat

This is the guitar riff that is repeated over and over again.

eb------------------------------------------------------|
Bb------------------------------------------------------|
Gb------------------------------------------------------|
Db--6-6-6-6-6-6-6-4-6-6-4-6----6-6-6-6-6-6-6-4-6-6-4-6--|
Ab--4-4-4-4-4-4-4-2-4-4-2-4----4-4-4-4-4-4-4-2-4-4-2-4--|
Eb------------------------------------------------------|

eb------------------------------------------------------|
Bb------------------------------------------------------|
Gb------------------------------------------------------|
Db------------------------------------------------------|
Ab--7-7-7-7-7-7-7-6-7-7-6-7----4-4-4-4-4-4-4-2-4-4-2-4--|
Eb--5-5-5-5-5-5-5-4-5-5-4-5----2-2-2-2-2-2-2-0-2-2-0-2--|


===============================================================================