Back

Electric Requiem Tab Tab

by Queensryche

 Author/Artist: Queensryche
Title: Electric Requiem
Album: Operation: Mindcrime

Dr. X did it, I swear.  If you look at this transcription you'll notice that both guitars are playing almost the same things, except one string apart.

-------------------------3-----------24---23v----16-\---11------/-24--b26r24--
-------------------------0----------------------------------------------------
-------------------------0----------------------------------------------------
-------------------------2----------------------------------------------------
------------------------------------------------------------------------------
------------------------------------------------------------------------------
  TURN THE CURRENT ON!!!!       (Guitar One)                                  

---23h24p23v---16-\-11---11----11---b12---r11------5-/-11-\-5-/-11---12v-14v--
------------------------------------------------------------------------------
------------------------------------------------------------------------------
------------------------------------------------------------------------------
------------------------------------------------------------------------------
------------------------------------------------------------------------------
                                                                              

-12------0--------------------------------------------------------------------
---------1--------------------------------------------------------------------
---------0--------------------------------------------------------------------
---------2--------------------------------------------------------------------
---------3--------------------------------------------------------------------
------------------------------------------------------------------------------
                                               
------------------------^5-----------24---23v----16-\---11------/-24--b26r24--
------------------------^5----------------------------------------------------
------------------------^5----------------------------------------------------
-----------------------------------------------------------------------------
------------------------------------------------------------------------------
------------------------------------------------------------------------------
  TURN THE CURRENT ON!!!!       (Guitar Two)                                  

---23h24p23v---16-\-11---11----11---b12---r11------5-/-11-\-5-/-11---12v-14v--
------------------------------------------------------------------------------
------------------------------------------------------------------------------
------------------------------------------------------------------------------
------------------------------------------------------------------------------
------------------------------------------------------------------------------
                                                                              

-12------0--------------------------------------------------------------------
---------0--------------------------------------------------------------------
---------0--------------------------------------------------------------------
---------2--------------------------------------------------------------------
---------2--------------------------------------------------------------------
---------0--------------------------------------------------------------------

h  - hammer on
p  - pull off
* - trill
b  - bend (use tremolo bar for downbend)
r  - release bend
/  - slide up
\  - slide down
v  - vibrato
t  - tap (with strumming hand)
x  - fret-hand muting
^ -  natural harmonics
ph- artificial (pinch) harmonics
PM palm mute
					-\----------/----
Lines going diagonally up and down   --\--------/-----
These mean whammy bar                     --\------/-------
 		 -                                    --\----/------
\ - bar down
/- bar up