Back

I Dont Believe In Love (ver 2) Tab Tab

by Queensryche

 Received: from brik.cs.vu.nl by top.cs.vu.nl id aa10437; 23 Feb 94 14:23 MET
Received: from jol37.cs.vu.nl by brik.cs.vu.nl id aa07469; 23 Feb 94 14:23 MET
Message-ID:  


"I don't believe in love" by Queensryche

Note: This is not very accurate as I did it off some REALLY old
tape I had.. The reason I posted this is that someone requested me!
Even the lyrics were inaudible, so don't expect them to be right


INTRO (and CHORUS backing as well)

-3/5--5---3-------6-----3/5--5---3--------0h1--1----
-1/3----3---3-6-3-------1/3----3---3-6-3--1----1----
-----------------------------------------------3----
----------------------------------------------------
----------------------------------------------------
----------------------------------------------------

VERSE
 Dsus2
 xx0230
 Bb
 sus2  xx0311
 Csus2
 xx0533
 Dsus2
 
 Bb
 sus2
 Csus2
 I walk on impact under surveillance of the camera eye
 Bb
 sus2
searching high and low

Followed by this bit

--------5--------3--------3--------1--0-----
------3--------3--------3--------3-------3--
----2--------2--------5--------3---------2--
--0--------0--------0--------0-----------0--
--------------------------------------------
--------------------------------------------